Forums > Queen - General Discussion > Say It's Not True Tab

forum rss feed
Author

All I Hear Is Radio Gaga user not visiting Queenzone.com

Royalty: 1181 posts
add to buddy list send PM

Posted: 19 Feb 06, 15:10 Edit this post Reply to this post Reply with Quote

Hey does anyone know a site or has the chords/tab for Say It's Not True? I've been trying to tab it from the DVD, I got a little bit of the begining but am having some trouble.

Cheers


"Take The First Step In Faith, You Don't Have To See The Whole Staircase, Just Take The First Step."
Bohardy user not visiting Queenzone.com

Deity: 2447 posts
add to buddy list send PM

Posted: 19 Feb 06, 15:18 Edit this post Reply to this post Reply with Quote

Verse:

|-C-----------|-Fmaj7-------|-Am----------|-G-----------|

|-0--0--0--0--|-0--0--0--0--|-0--0--0--0--|-3--3--3--3--|
|-1--3--1--0--|-1--3--1--0--|-1--3--1--0--|-0--0--0--0--|
|-0--0--0--0--|-2--2--2--2--|-2--2--2--2--|-0--0--0--0--|
|-2--2--2--2--|-3--3--3--3--|-2--2--2--2--|-0--0--0--0--|
|-3--3--3--3--|-x--x--x--x--|-0--0--0--0--|-x--x--x--x--|
|-x--x--x--x--|-x--x--x--x--|-x--x--x--x--|-3--3--3--3--|

(Verse again)

Chorus:

|-F-----------|-C-----------|-Am----------|-G-----------|

|-1-----------|-0-----------|-0-----------|-3-----------|
|-1-----------|-1-----------|-1-----------|-0-----------|
|-2-----------|-0-----------|-2-----------|-0-----------|
|-3-----------|-2-----------|-2-----------|-0-----------|
|-3-----------|-3-----------|-0-----------|-x-----------|
|-1-----------|-x-----------|-x-----------|-3-----------|

|-F-----------|-C-----------|-Dm----F-----|-C-----------|

|-1-----------|-0-----------|-1-----1-----|-0-----------|
|-1-----------|-1-----------|-3-----1-----|-1-----------|
|-2-----------|-0-----------|-2-----2-----|-0-----------|
|-3-----------|-2-----------|-0-----3-----|-2-----------|
|-3-----------|-3-----------|-x-----3-----|-3-----------|
|-1-----------|-x-----------|-x-----1-----|-x-----------|


Then verse again x2.


Then chorus again but substitute the second F with Fm (133111).

Et voila.


Gullibility and credulity are considered undesirable qualities in every department of human life -- except religion.
Music Man user not visiting Queenzone.com

Deity: 2346 posts
add to buddy list send PM

Posted: 19 Feb 06, 16:42 Edit this post Reply to this post Reply with Quote

OMG THE MPA'S GONNA HAVE YOUR ASS ON A PLATTER!!!


Just kidding. The bastards.


Creativity can always cover for a lack of knowledge.
All I Hear Is Radio Gaga user not visiting Queenzone.com

Royalty: 1181 posts
add to buddy list send PM

Posted: 19 Feb 06, 17:11 Edit this post Reply to this post Reply with Quote

Thanks so much Bohardy!!!

Cheers


"Take The First Step In Faith, You Don't Have To See The Whole Staircase, Just Take The First Step."
Mercuryworks user not visiting Queenzone.com

Bohemian: 757 posts
add to buddy list send PM

Posted: 19 Feb 06, 21:48 Edit this post Reply to this post Reply with Quote

queen4ever2 wrote:

Who sang Mr. Roboto?

Domi Arigato, Mr. Roboto by STYX?


<blank>